  0
SECTION
  2
HEADER
  9
$ACADVER
  1
AC1015
  9
$ACADMAINTVER
 70
     6
  9
$DWGCODEPAGE
  3
ANSI_1254
  9
$INSBASE
 10
0.0
 20
0.0
 30
0.0
  9
$EXTMIN
 10
0.0
 20
0.0
 30
0.0
  9
$EXTMAX
 10
279.4
 20
215.9
 30
0.0
  9
$LIMMIN
 10
0.0
 20
0.0
  9
$LIMMAX
 10
279.4
 20
215.9
  9
$ORTHOMODE
 70
     0
  9
$REGENMODE
 70
     1
  9
$FILLMODE
 70
     1
  9
$QTEXTMODE
 70
     0
  9
$MIRRTEXT
 70
     1
  9
$LTSCALE
 40
1.0
  9
$ATTMODE
 70
     1
  9
$TEXTSIZE
 40
3.5
  9
$TRACEWID
 40
1.0
  9
$TEXTSTYLE
  7
Standard
  9
$CLAYER
  8
0
  9
$CELTYPE
  6
ByLayer
  9
$CECOLOR
 62
   256
  9
$CELTSCALE
 40
1.0
  9
$DISPSILH
 70
     0
  9
$DIMSCALE
 40
1.0
  9
$DIMASZ
 40
3.5
  9
$DIMEXO
 40
1.0
  9
$DIMDLI
 40
3.75
  9
$DIMRND
 40
0.0
  9
$DIMDLE
 40
0.0
  9
$DIMEXE
 40
1.0
  9
$DIMTP
 40
0.0
  9
$DIMTM
 40
0.0
  9
$DIMTXT
 40
3.5
  9
$DIMCEN
 40
2.5
  9
$DIMTSZ
 40
0.0
  9
$DIMTOL
 70
     0
  9
$DIMLIM
 70
     0
  9
$DIMTIH
 70
     1
  9
$DIMTOH
 70
     1
  9
$DIMSE1
 70
     0
  9
$DIMSE2
 70
     0
  9
$DIMTAD
 70
     1
  9
$DIMZIN
 70
     0
  9
$DIMBLK
  1

  9
$DIMASO
 70
     1
  9
$DIMSHO
 70
     1
  9
$DIMPOST
  1

  9
$DIMAPOST
  1

  9
$DIMALT
 70
     0
  9
$DIMALTD
 70
     3
  9
$DIMALTF
 40
0.0393700787
  9
$DIMLFAC
 40
1.0
  9
$DIMTOFL
 70
     1
  9
$DIMTVP
 40
0.0
  9
$DIMTIX
 70
     0
  9
$DIMSOXD
 70
     0
  9
$DIMSAH
 70
     0
  9
$DIMBLK1
  1

  9
$DIMBLK2
  1

  9
$DIMSTYLE
  2
ISO-25
  9
$DIMCLRD
 70
     0
  9
$DIMCLRE
 70
     0
  9
$DIMCLRT
 70
     0
  9
$DIMTFAC
 40
1.0
  9
$DIMGAP
 40
1.524
  9
$DIMJUST
 70
     0
  9
$DIMSD1
 70
     0
  9
$DIMSD2
 70
     0
  9
$DIMTOLJ
 70
     0
  9
$DIMTZIN
 70
     0
  9
$DIMALTZ
 70
     0
  9
$DIMALTTZ
 70
     0
  9
$DIMUPT
 70
     0
  9
$DIMDEC
 70
     2
  9
$DIMTDEC
 70
     2
  9
$DIMALTU
 70
     2
  9
$DIMALTTD
 70
     3
  9
$DIMTXSTY
  7
Standard
  9
$DIMAUNIT
 70
     0
  9
$DIMADEC
 70
     2
  9
$DIMALTRND
 40
0.0
  9
$DIMAZIN
 70
     0
  9
$DIMDSEP
 70
    44
  9
$DIMATFIT
 70
     3
  9
$DIMFRAC
 70
     0
  9
$DIMLDRBLK
  1

  9
$DIMLUNIT
 70
     2
  9
$DIMLWD
 70
    -2
  9
$DIMLWE
 70
    -2
  9
$DIMTMOVE
 70
     0
  9
$LUNITS
 70
     2
  9
$LUPREC
 70
     2
  9
$SKETCHINC
 40
1.0
  9
$FILLETRAD
 40
10.0
  9
$AUNITS
 70
     0
  9
$AUPREC
 70
     2
  9
$MENU
  1
.
  9
$ELEVATION
 40
0.0
  9
$PELEVATION
 40
0.0
  9
$THICKNESS
 40
0.0
  9
$LIMCHECK
 70
     0
  9
$CHAMFERA
 40
0.0
  9
$CHAMFERB
 40
0.0
  9
$CHAMFERC
 40
0.0
  9
$CHAMFERD
 40
0.0
  9
$SKPOLY
 70
     0
  9
$TDCREATE
 40
2459935.709645011
  9
$TDUCREATE
 40
2459935.584645011
  9
$TDUPDATE
 40
2459935.709645197
  9
$TDUUPDATE
 40
2459935.584645197
  9
$TDINDWG
 40
0.0000000116
  9
$TDUSRTIMER
 40
0.0000000116
  9
$USRTIMER
 70
     1
  9
$ANGBASE
 50
0.0
  9
$ANGDIR
 70
     0
  9
$PDMODE
 70
     0
  9
$PDSIZE
 40
-1.0
  9
$PLINEWID
 40
0.0
  9
$SPLFRAME
 70
     0
  9
$SPLINETYPE
 70
     6
  9
$SPLINESEGS
 70
     8
  9
$HANDSEED
  5
F5
  9
$SURFTAB1
 70
     6
  9
$SURFTAB2
 70
     6
  9
$SURFTYPE
 70
     6
  9
$SURFU
 70
     6
  9
$SURFV
 70
     6
  9
$UCSBASE
  2

  9
$UCSNAME
  2

  9
$UCSORG
 10
0.0
 20
0.0
 30
0.0
  9
$UCSXDIR
 10
1.0
 20
0.0
 30
0.0
  9
$UCSYDIR
 10
0.0
 20
1.0
 30
0.0
  9
$UCSORTHOREF
  2

  9
$UCSORTHOVIEW
 70
     0
  9
$UCSORGTOP
 10
0.0
 20
0.0
 30
0.0
  9
$UCSORGBOTTOM
 10
0.0
 20
0.0
 30
0.0
  9
$UCSORGLEFT
 10
0.0
 20
0.0
 30
0.0
  9
$UCSORGRIGHT
 10
0.0
 20
0.0
 30
0.0
  9
$UCSORGFRONT
 10
0.0
 20
0.0
 30
0.0
  9
$UCSORGBACK
 10
0.0
 20
0.0
 30
0.0
  9
$PUCSBASE
  2

  9
$PUCSNAME
  2

  9
$PUCSORG
 10
0.0
 20
0.0
 30
0.0
  9
$PUCSXDIR
 10
1.0
 20
0.0
 30
0.0
  9
$PUCSYDIR
 10
0.0
 20
1.0
 30
0.0
  9
$PUCSORTHOREF
  2

  9
$PUCSORTHOVIEW
 70
     0
  9
$PUCSORGTOP
 10
0.0
 20
0.0
 30
0.0
  9
$PUCSORGBOTTOM
 10
0.0
 20
0.0
 30
0.0
  9
$PUCSORGLEFT
 10
0.0
 20
0.0
 30
0.0
  9
$PUCSORGRIGHT
 10
0.0
 20
0.0
 30
0.0
  9
$PUCSORGFRONT
 10
0.0
 20
0.0
 30
0.0
  9
$PUCSORGBACK
 10
0.0
 20
0.0
 30
0.0
  9
$USERI1
 70
     0
  9
$USERI2
 70
     0
  9
$USERI3
 70
     0
  9
$USERI4
 70
     0
  9
$USERI5
 70
     0
  9
$USERR1
 40
0.0
  9
$USERR2
 40
0.0
  9
$USERR3
 40
0.0
  9
$USERR4
 40
0.0
  9
$USERR5
 40
0.0
  9
$WORLDVIEW
 70
     1
  9
$SHADEDGE
 70
     3
  9
$SHADEDIF
 70
    70
  9
$TILEMODE
 70
     1
  9
$MAXACTVP
 70
    64
  9
$PINSBASE
 10
0.0
 20
0.0
 30
0.0
  9
$PLIMCHECK
 70
     0
  9
$PEXTMIN
 10
1.0000000000E+20
 20
1.0000000000E+20
 30
1.0000000000E+20
  9
$PEXTMAX
 10
-1.0000000000E+20
 20
-1.0000000000E+20
 30
-1.0000000000E+20
  9
$PLIMMIN
 10
0.0
 20
0.0
  9
$PLIMMAX
 10
420.0
 20
297.0
  9
$UNITMODE
 70
     0
  9
$VISRETAIN
 70
     1
  9
$PLINEGEN
 70
     0
  9
$PSLTSCALE
 70
     1
  9
$TREEDEPTH
 70
  3020
  9
$CMLSTYLE
  2
Standard
  9
$CMLJUST
 70
     0
  9
$CMLSCALE
 40
20.0
  9
$PROXYGRAPHICS
 70
     1
  9
$MEASUREMENT
 70
     1
  9
$CELWEIGHT
370
    -1
  9
$ENDCAPS
280
     0
  9
$JOINSTYLE
280
     0
  9
$LWDISPLAY
290
     1
  9
$INSUNITS
 70
     4
  9
$HYPERLINKBASE
  1

  9
$STYLESHEET
  1

  9
$XEDIT
290
     1
  9
$CEPSNTYPE
380
     0
  9
$PSTYLEMODE
290
     1
  9
$FINGERPRINTGUID
  2
{0697a199-05bc-48e7-a5b1-f3c6e7d1c141}
  9
$VERSIONGUID
  2
{FAEB1C32-E019-11D5-929B-00C0DF256EC4}
  9
$EXTNAMES
290
     1
  9
$PSVPSCALE
 40
0.0
  9
$OLESTARTUP
290
     0
  0
ENDSEC
  0
SECTION
  2
CLASSES
  0
CLASS
  1
ACDBDICTIONARYWDFLT
  2
AcDbDictionaryWithDefault
  3
ObjectDBX Classes
 90
        0
280
     0
281
     0
  0
CLASS
  1
VISUALSTYLE
  2
AcDbVisualStyle
  3
ObjectDBX Classes
 90
     4095
280
     0
281
     0
  0
CLASS
  1
MATERIAL
  2
AcDbMaterial
  3
ObjectDBX Classes
 90
     1153
280
     0
281
     0
  0
CLASS
  1
SCALE
  2
AcDbScale
  3
ObjectDBX Classes
 90
     1153
280
     0
281
     0
  0
CLASS
  1
TABLESTYLE
  2
AcDbTableStyle
  3
ObjectDBX Classes
 90
     4095
280
     0
281
     0
  0
CLASS
  1
MLEADERSTYLE
  2
AcDbMLeaderStyle
  3
ACDB_MLEADERSTYLE_CLASS
 90
     4095
280
     0
281
     0
  0
CLASS
  1
SUN
  2
AcDbSun
  3
SCENEOE
 90
     1153
280
     0
281
     0
  0
CLASS
  1
ACDBPLACEHOLDER
  2
AcDbPlaceHolder
  3
ObjectDBX Classes
 90
        0
280
     0
281
     0
  0
CLASS
  1
LAYOUT
  2
AcDbLayout
  3
ObjectDBX Classes
 90
        0
280
     0
281
     0
  0
ENDSEC
  0
SECTION
  2
TABLES
  0
TABLE
  2
VPORT
  5
8
330
0
100
AcDbSymbolTable
 70
     1
  0
VPORT
  5
29
330
8
100
AcDbSymbolTableRecord
100
AcDbViewportTableRecord
  2
*Active
 70
     0
 10
0.0
 20
0.0
 11
1.0
 21
1.0
 12
139.7
 22
107.95
 13
0.0
 23
0.0
 14
10.0
 24
10.0
 15
10.0
 25
10.0
 16
0.0
 26
0.0
 36
1.0
 17
0.0
 27
0.0
 37
0.0
 40
215.9
 41
1.2941176471
 42
50.0
 43
0.0
 44
0.0
 50
0.0
 51
0.0
 71
     0
 72
  2000
 73
     1
 74
     3
 75
     0
 76
     0
 77
     0
 78
     0
281
     0
 65
     1
110
0.0
120
0.0
130
0.0
111
1.0
121
0.0
131
0.0
112
0.0
122
1.0
132
0.0
 79
     0
146
0.0
  0
ENDTAB
  0
TABLE
  2
LTYPE
  5
5
330
0
100
AcDbSymbolTable
 70
     6
  0
LTYPE
  5
14
330
5
100
AcDbSymbolTableRecord
100
AcDbLinetypeTableRecord
  2
ByBlock
 70
     0
  3

 72
    65
 73
     0
 40
0.0
  0
LTYPE
  5
15
330
5
100
AcDbSymbolTableRecord
100
AcDbLinetypeTableRecord
  2
ByLayer
 70
     0
  3

 72
    65
 73
     0
 40
0.0
  0
LTYPE
  5
16
330
5
100
AcDbSymbolTableRecord
100
AcDbLinetypeTableRecord
  2
Continuous
 70
     0
  3
Solid line
 72
    65
 73
     0
 40
0.0
  0
LTYPE
  5
6E
330
5
100
AcDbSymbolTableRecord
100
AcDbLinetypeTableRecord
  2
HIDDEN
 70
     0
  3
Hidden __ __ __ __ __ __ __ __ __ __ __ __ __ __
 72
    65
 73
     2
 40
1.905
 49
1.27
 74
     0
 49
-0.635
 74
     0
  0
LTYPE
  5
6F
330
5
100
AcDbSymbolTableRecord
100
AcDbLinetypeTableRecord
  2
PHANTOM
 70
     0
  3
Phantom ______  __  __  ______  __  __  ______
 72
    65
 73
     6
 40
12.7
 49
6.35
 74
     0
 49
-1.27
 74
     0
 49
1.27
 74
     0
 49
-1.27
 74
     0
 49
1.27
 74
     0
 49
-1.27
 74
     0
  0
LTYPE
  5
70
330
5
100
AcDbSymbolTableRecord
100
AcDbLinetypeTableRecord
  2
CENTER
 70
     0
  3
Center ____ _ ____ _ ____ _ ____ _ ____ _ ____
 72
    65
 73
     4
 40
10.16
 49
6.35
 74
     0
 49
-1.27
 74
     0
 49
1.27
 74
     0
 49
-1.27
 74
     0
  0
LTYPE
  5
71
330
5
100
AcDbSymbolTableRecord
100
AcDbLinetypeTableRecord
  2
CENTERX2
 70
     0
  3
Center (2x) ________  __  ________  __  _____
 72
    65
 73
     4
 40
20.32
 49
12.7
 74
     0
 49
-2.54
 74
     0
 49
2.54
 74
     0
 49
-2.54
 74
     0
  0
LTYPE
  5
72
330
5
100
AcDbSymbolTableRecord
100
AcDbLinetypeTableRecord
  2
DOT2
 70
     0
  3
Dot (.5x) ........................................
 72
    65
 73
     2
 40
0.635
 49
0.0
 74
     0
 49
-0.635
 74
     0
  0
ENDTAB
  0
TABLE
  2
LAYER
  5
2
330
0
100
AcDbSymbolTable
 70
    17
  0
LAYER
  5
10
330
2
100
AcDbSymbolTableRecord
100
AcDbLayerTableRecord
  2
0
 70
     0
 62
     7
  6
Continuous
370
    -3
390
F
  0
LAYER
  5
73
330
2
100
AcDbSymbolTableRecord
100
AcDbLayerTableRecord
  2
FORMAT
 70
     0
 62
     7
  6
Continuous
370
    -3
390
F
  0
LAYER
  5
74
330
2
100
AcDbSymbolTableRecord
100
AcDbLayerTableRecord
  2
YARDIMCI_GEOMETRI
 70
     0
 62
    -6
  6
Continuous
290
     0
370
    -3
390
F
  0
LAYER
  5
75
330
2
100
AcDbSymbolTableRecord
100
AcDbLayerTableRecord
  2
SAYFA_CERCEVESI
 70
     0
 62
     7
  6
Continuous
370
    25
390
F
  0
LAYER
  5
76
330
2
100
AcDbSymbolTableRecord
100
AcDbLayerTableRecord
  2
ANTET
 70
     0
 62
     7
  6
Continuous
370
    -3
390
F
  0
LAYER
  5
77
330
2
100
AcDbSymbolTableRecord
100
AcDbLayerTableRecord
  2
OLCU
 70
     0
 62
   150
  6
Continuous
370
    -3
390
F
  0
LAYER
  5
78
330
2
100
AcDbSymbolTableRecord
100
AcDbLayerTableRecord
  2
METIN
 70
     0
 62
    96
  6
Continuous
370
    -3
390
F
  0
LAYER
  5
79
330
2
100
AcDbSymbolTableRecord
100
AcDbLayerTableRecord
  2
BALON
 70
     0
 62
     5
  6
Continuous
370
    -3
390
F
  0
LAYER
  5
7A
330
2
100
AcDbSymbolTableRecord
100
AcDbLayerTableRecord
  2
VURGU
 70
     0
 62
     7
  6
Continuous
370
    -3
390
F
  0
LAYER
  5
7B
330
2
100
AcDbSymbolTableRecord
100
AcDbLayerTableRecord
  2
SILIK
 70
     0
 62
     7
  6
Continuous
370
    -3
390
F
  0
LAYER
  5
7C
330
2
100
AcDbSymbolTableRecord
100
AcDbLayerTableRecord
  2
MODEL
 70
     0
 62
     7
  6
Continuous
370
    -3
390
F
  0
LAYER
  5
7D
330
2
100
AcDbSymbolTableRecord
100
AcDbLayerTableRecord
  2
DETAYLANDıRMA
 70
     0
 62
   190
  6
Continuous
370
    -3
390
F
  0
LAYER
  5
7E
330
2
100
AcDbSymbolTableRecord
100
AcDbLayerTableRecord
  2
TOLERANS
 70
     0
 62
   230
  6
Continuous
370
    -3
390
F
  0
LAYER
  5
7F
330
2
100
AcDbSymbolTableRecord
100
AcDbLayerTableRecord
  2
MERKEZ_CIZGILERI
 70
     0
 62
    30
  6
Continuous
370
    -3
390
F
  0
LAYER
  5
80
330
2
100
AcDbSymbolTableRecord
100
AcDbLayerTableRecord
  2
KESIT-DETAY_CIZGILERI
 70
     0
 62
     7
  6
Continuous
370
    -3
390
F
  0
LAYER
  5
81
330
2
100
AcDbSymbolTableRecord
100
AcDbLayerTableRecord
  2
\U+041E\U+0421\U+0415\U+0412\U+042B\U+0415
 70
     0
 62
     7
  6
Continuous
370
    -3
390
F
  0
LAYER
  5
82
330
2
100
AcDbSymbolTableRecord
100
AcDbLayerTableRecord
  2
\U+0412\U+041E\U+0414\U+042F\U+041D\U+042B\U+0415_\U+0417\U+041D\U+0410\U+041A\U+0418
 70
     0
 62
    11
  6
Continuous
370
    -3
390
F
  0
ENDTAB
  0
TABLE
  2
STYLE
  5
3
330
0
100
AcDbSymbolTable
 70
     1
  0
STYLE
  5
11
330
3
100
AcDbSymbolTableRecord
100
AcDbTextStyleTableRecord
  2
Standard
 70
     0
 40
0.0
 41
1.0
 50
0.0
 71
     0
 42
3.5
  3
txt
  4

  0
ENDTAB
  0
TABLE
  2
VIEW
  5
6
330
0
100
AcDbSymbolTable
 70
     0
  0
ENDTAB
  0
TABLE
  2
UCS
  5
7
330
0
100
AcDbSymbolTable
 70
     0
  0
ENDTAB
  0
TABLE
  2
APPID
  5
9
330
0
100
AcDbSymbolTable
 70
     1
  0
APPID
  5
12
330
9
100
AcDbSymbolTableRecord
100
AcDbRegAppTableRecord
  2
ACAD
 70
     0
  0
ENDTAB
  0
TABLE
  2
DIMSTYLE
  5
A
330
0
100
AcDbSymbolTable
 70
     1
100
AcDbDimStyleTable
  0
DIMSTYLE
105
27
330
A
100
AcDbSymbolTableRecord
100
AcDbDimStyleTableRecord
  2
ISO-25
 70
     0
 41
2.5
 42
0.625
 43
3.75
 44
1.25
 73
     0
 74
     0
 77
     1
 78
     8
140
2.5
141
2.5
143
0.0393700787
147
0.625
171
     3
172
     1
178
     0
271
     2
272
     2
274
     3
278
    44
283
     0
284
     8
340
11
  0
ENDTAB
  0
TABLE
  2
BLOCK_RECORD
  5
1
330
0
100
AcDbSymbolTable
 70
     2
  0
BLOCK_RECORD
  5
1F
330
1
100
AcDbSymbolTableRecord
100
AcDbBlockTableRecord
  2
*Model_Space
340
22
  0
BLOCK_RECORD
  5
1B
330
1
100
AcDbSymbolTableRecord
100
AcDbBlockTableRecord
  2
*Paper_Space
340
1E
  0
BLOCK_RECORD
  5
23
330
1
100
AcDbSymbolTableRecord
100
AcDbBlockTableRecord
  2
*Paper_Space0
340
26
  0
BLOCK_RECORD
  5
88
330
1
100
AcDbSymbolTableRecord
100
AcDbBlockTableRecord
  2
SW_CENTERMARKSYMBOL_0
340
0
102
{BLKREFS
331
93
102
}
  0
ENDTAB
  0
ENDSEC
  0
SECTION
  2
BLOCKS
  0
BLOCK
  5
20
330
1F
100
AcDbEntity
  8
0
100
AcDbBlockBegin
  2
*Model_Space
 70
     0
 10
0.0
 20
0.0
 30
0.0
  3
*Model_Space
  1

  0
ENDBLK
  5
21
330
1F
100
AcDbEntity
  8
0
100
AcDbBlockEnd
  0
BLOCK
  5
1C
330
1B
100
AcDbEntity
 67
     1
  8
0
100
AcDbBlockBegin
  2
*Paper_Space
 70
     0
 10
0.0
 20
0.0
 30
0.0
  3
*Paper_Space
  1

  0
ENDBLK
  5
1D
330
1B
100
AcDbEntity
 67
     1
  8
0
100
AcDbBlockEnd
  0
BLOCK
  5
24
330
23
100
AcDbEntity
  8
0
100
AcDbBlockBegin
  2
*Paper_Space0
 70
     0
 10
0.0
 20
0.0
 30
0.0
  3
*Paper_Space0
  1

  0
ENDBLK
  5
25
330
23
100
AcDbEntity
  8
0
100
AcDbBlockEnd
  0
BLOCK
  5
89
330
88
100
AcDbEntity
  8
0
100
AcDbBlockBegin
  2
SW_CENTERMARKSYMBOL_0
 70
     0
 10
0.0
 20
0.0
 30
0.0
  3
SW_CENTERMARKSYMBOL_0
  1

  0
LINE
  5
8B
330
88
100
AcDbEntity
  8
FORMAT
 62
     0
100
AcDbLine
 10
0.0
 20
0.0
 30
0.0
 11
0.0
 21
2.5
 31
0.0
  0
LINE
  5
8C
330
88
100
AcDbEntity
  8
FORMAT
 62
     0
100
AcDbLine
 10
0.0
 20
0.0
 30
0.0
 11
-2.5
 21
0.0
 31
0.0
  0
LINE
  5
8D
330
88
100
AcDbEntity
  8
FORMAT
 62
     0
100
AcDbLine
 10
0.0
 20
0.0
 30
0.0
 11
0.0
 21
-2.5
 31
0.0
  0
LINE
  5
8E
330
88
100
AcDbEntity
  8
FORMAT
 62
     0
100
AcDbLine
 10
0.0
 20
0.0
 30
0.0
 11
2.5
 21
0.0
 31
0.0
  0
LINE
  5
8F
330
88
100
AcDbEntity
  8
FORMAT
 62
     0
100
AcDbLine
 10
0.0
 20
5.0
 30
0.0
 11
0.0
 21
45.0
 31
0.0
  0
LINE
  5
90
330
88
100
AcDbEntity
  8
FORMAT
 62
     0
100
AcDbLine
 10
-5.0
 20
0.0
 30
0.0
 11
-45.0
 21
0.0
 31
0.0
  0
LINE
  5
91
330
88
100
AcDbEntity
  8
FORMAT
 62
     0
100
AcDbLine
 10
0.0
 20
-5.0
 30
0.0
 11
0.0
 21
-45.0
 31
0.0
  0
LINE
  5
92
330
88
100
AcDbEntity
  8
FORMAT
 62
     0
100
AcDbLine
 10
5.0
 20
0.0
 30
0.0
 11
45.0
 21
0.0
 31
0.0
  0
ENDBLK
  5
8A
330
88
100
AcDbEntity
  8
0
100
AcDbBlockEnd
  0
ENDSEC
  0
SECTION
  2
ENTITIES
  0
CIRCLE
  5
83
330
1F
100
AcDbEntity
  8
0
  6
Continuous
 62
     7
370
    25
100
AcDbCircle
 10
137.9424909615
 20
108.5958316346
 30
0.0
 40
30.15999999999994
  0
CIRCLE
  5
84
330
1F
100
AcDbEntity
  8
0
  6
Continuous
 62
     7
370
    25
100
AcDbCircle
 10
137.9424909615
 20
108.5958316346
 30
0.0
 40
26.24999999999997
  0
CIRCLE
  5
85
330
1F
100
AcDbEntity
  8
0
  6
Continuous
 62
     7
370
    25
100
AcDbCircle
 10
137.9424909615
 20
108.5958316346
 30
0.0
 40
32.65000000000001
  0
CIRCLE
  5
86
330
1F
100
AcDbEntity
  8
0
  6
Continuous
 62
     7
370
    25
100
AcDbCircle
 10
137.9424909615
 20
108.5958316346
 30
0.0
 40
42.50000000000003
  0
CIRCLE
  5
87
330
1F
100
AcDbEntity
  8
0
  6
Continuous
 62
     7
370
    25
100
AcDbCircle
 10
137.9424909615
 20
108.5958316346
 30
0.0
 40
25.69999999999999
  0
INSERT
  5
93
330
1F
100
AcDbEntity
  8
FORMAT
 62
     7
100
AcDbBlockReference
  2
SW_CENTERMARKSYMBOL_0
 10
137.9424909615
 20
108.5958316346
 30
0.0
  0
LINE
  5
94
330
1F
100
AcDbEntity
  8
0
  6
Continuous
 62
     7
370
    25
100
AcDbLine
 10
398.2356812865
 20
151.0958316346
 30
0.0
 11
385.2356812865
 21
140.0958316346
 31
0.0
  0
LINE
  5
95
330
1F
100
AcDbEntity
  8
0
  6
Continuous
 62
     7
370
    25
100
AcDbLine
 10
385.2356812865
 20
77.0958316346
 30
0.0
 11
398.2356812865
 21
66.0958316346
 31
0.0
  0
LINE
  5
96
330
1F
100
AcDbEntity
  8
0
  6
Continuous
 62
     7
370
    25
100
AcDbLine
 10
475.2356812865
 20
151.0958316346
 30
0.0
 11
398.2356812865
 21
151.0958316346
 31
0.0
  0
LINE
  5
97
330
1F
100
AcDbEntity
  8
0
  6
Continuous
 62
     7
370
    25
100
AcDbLine
 10
398.2356812865
 20
66.0958316346
 30
0.0
 11
475.2356812865
 21
66.0958316346
 31
0.0
  0
LINE
  5
98
330
1F
100
AcDbEntity
  8
0
  6
Continuous
 62
     7
370
    25
100
AcDbLine
 10
700.2356812865
 20
141.2458316346
 30
0.0
 11
475.2356812865
 21
141.2458316346
 31
0.0
  0
LINE
  5
99
330
1F
100
AcDbEntity
  8
0
  6
Continuous
 62
     7
370
    25
100
AcDbLine
 10
475.2356812865
 20
75.9458316346
 30
0.0
 11
700.2356812865
 21
75.9458316346
 31
0.0
  0
LINE
  5
9A
330
1F
100
AcDbEntity
  8
0
  6
Continuous
 62
     7
370
    25
100
AcDbLine
 10
385.2356812865
 20
140.0958316346
 30
0.0
 11
275.2356812865
 21
140.0958316346
 31
0.0
  0
LINE
  5
9B
330
1F
100
AcDbEntity
  8
0
  6
Continuous
 62
     7
370
    25
100
AcDbLine
 10
275.2356812865
 20
77.0958316346
 30
0.0
 11
385.2356812865
 21
77.0958316346
 31
0.0
  0
LINE
  5
9C
330
1F
100
AcDbEntity
  8
0
  6
Continuous
 62
     7
370
    25
100
AcDbLine
 10
750.2356812865
 20
138.7558316346
 30
0.0
 11
700.2356812865
 21
138.7558316346
 31
0.0
  0
LINE
  5
9D
330
1F
100
AcDbEntity
  8
0
  6
Continuous
 62
     7
370
    25
100
AcDbLine
 10
700.2356812865
 20
78.4358316346
 30
0.0
 11
750.2356812865
 21
78.4358316346
 31
0.0
  0
LINE
  5
9E
330
1F
100
AcDbEntity
  8
0
  6
Continuous
 62
     7
370
    25
100
AcDbLine
 10
385.2356812865
 20
140.0958316346
 30
0.0
 11
385.2356812865
 21
77.0958316346
 31
0.0
  0
LINE
  5
9F
330
1F
100
AcDbEntity
  8
0
  6
Continuous
 62
     7
370
    25
100
AcDbLine
 10
398.2356812865
 20
151.0958316346
 30
0.0
 11
398.2356812865
 21
66.0958316346
 31
0.0
  0
LINE
  5
A0
330
1F
100
AcDbEntity
  8
0
  6
Continuous
 62
     7
370
    25
100
AcDbLine
 10
475.2356812865
 20
151.0958316346
 30
0.0
 11
475.2356812865
 21
66.0958316346
 31
0.0
  0
LINE
  5
A1
330
1F
100
AcDbEntity
  8
0
  6
Continuous
 62
     7
370
    25
100
AcDbLine
 10
700.2356812865
 20
141.2458316346
 30
0.0
 11
700.2356812865
 21
75.9458316346
 31
0.0
  0
LINE
  5
A2
330
1F
100
AcDbEntity
  8
0
  6
Continuous
 62
     7
370
    25
100
AcDbLine
 10
275.2356812865
 20
140.0958316346
 30
0.0
 11
275.2356812865
 21
77.0958316346
 31
0.0
  0
LINE
  5
A3
330
1F
100
AcDbEntity
  8
0
  6
Continuous
 62
     7
370
    25
100
AcDbLine
 10
750.2356812865
 20
138.7558316346
 30
0.0
 11
750.2356812865
 21
78.4358316346
 31
0.0
  0
LINE
  5
A4
330
1F
100
AcDbEntity
  8
0
  6
Continuous
 62
     7
370
    25
100
AcDbLine
 10
-120.7503720426
 20
66.0958316346
 30
0.0
 11
-107.7503720426
 21
77.0958316346
 31
0.0
  0
LINE
  5
A5
330
1F
100
AcDbEntity
  8
0
  6
Continuous
 62
     7
370
    25
100
AcDbLine
 10
-107.7503720426
 20
140.0958316346
 30
0.0
 11
-120.7503720426
 21
151.0958316346
 31
0.0
  0
LINE
  5
A6
330
1F
100
AcDbEntity
  8
0
  6
Continuous
 62
     7
370
    25
100
AcDbLine
 10
-197.7503720426
 20
66.0958316346
 30
0.0
 11
-120.7503720426
 21
66.0958316346
 31
0.0
  0
LINE
  5
A7
330
1F
100
AcDbEntity
  8
0
  6
Continuous
 62
     7
370
    25
100
AcDbLine
 10
-120.7503720426
 20
151.0958316346
 30
0.0
 11
-197.7503720426
 21
151.0958316346
 31
0.0
  0
LINE
  5
A8
330
1F
100
AcDbEntity
  8
0
  6
Continuous
 62
     7
370
    25
100
AcDbLine
 10
-422.7503720426
 20
75.9458316346
 30
0.0
 11
-197.7503720426
 21
75.9458316346
 31
0.0
  0
LINE
  5
A9
330
1F
100
AcDbEntity
  8
0
  6
Continuous
 62
     7
370
    25
100
AcDbLine
 10
-197.7503720426
 20
141.2458316346
 30
0.0
 11
-422.7503720426
 21
141.2458316346
 31
0.0
  0
LINE
  5
AA
330
1F
100
AcDbEntity
  8
0
  6
Continuous
 62
     7
370
    25
100
AcDbLine
 10
-107.7503720426
 20
77.0958316346
 30
0.0
 11
2.2496279574
 21
77.0958316346
 31
0.0
  0
LINE
  5
AB
330
1F
100
AcDbEntity
  8
0
  6
Continuous
 62
     7
370
    25
100
AcDbLine
 10
2.2496279574
 20
140.0958316346
 30
0.0
 11
-107.7503720426
 21
140.0958316346
 31
0.0
  0
LINE
  5
AC
330
1F
100
AcDbEntity
  8
0
  6
Continuous
 62
     7
370
    25
100
AcDbLine
 10
-472.7503720426
 20
78.4358316346
 30
0.0
 11
-422.7503720426
 21
78.4358316346
 31
0.0
  0
LINE
  5
AD
330
1F
100
AcDbEntity
  8
0
  6
Continuous
 62
     7
370
    25
100
AcDbLine
 10
-422.7503720426
 20
138.7558316346
 30
0.0
 11
-472.7503720426
 21
138.7558316346
 31
0.0
  0
LINE
  5
AE
330
1F
100
AcDbEntity
  8
0
  6
Continuous
 62
     7
370
    25
100
AcDbLine
 10
-107.7503720426
 20
108.5958316346
 30
0.0
 11
-107.7503720426
 21
140.0958316346
 31
0.0
  0
LINE
  5
AF
330
1F
100
AcDbEntity
  8
0
  6
Continuous
 62
     7
370
    25
100
AcDbLine
 10
-107.7503720426
 20
77.0958316346
 30
0.0
 11
-107.7503720426
 21
108.5958316346
 31
0.0
  0
LINE
  5
B0
330
1F
100
AcDbEntity
  8
0
  6
Continuous
 62
     7
370
    25
100
AcDbLine
 10
-120.7503720426
 20
108.5958316346
 30
0.0
 11
-120.7503720426
 21
151.0958316346
 31
0.0
  0
LINE
  5
B1
330
1F
100
AcDbEntity
  8
0
  6
Continuous
 62
     7
370
    25
100
AcDbLine
 10
-120.7503720426
 20
66.0958316346
 30
0.0
 11
-120.7503720426
 21
108.5958316346
 31
0.0
  0
LINE
  5
B2
330
1F
100
AcDbEntity
  8
0
  6
Continuous
 62
     7
370
    25
100
AcDbLine
 10
-197.7503720426
 20
108.5958316346
 30
0.0
 11
-197.7503720426
 21
151.0958316346
 31
0.0
  0
LINE
  5
B3
330
1F
100
AcDbEntity
  8
0
  6
Continuous
 62
     7
370
    25
100
AcDbLine
 10
-197.7503720426
 20
66.0958316346
 30
0.0
 11
-197.7503720426
 21
108.5958316346
 31
0.0
  0
LINE
  5
B4
330
1F
100
AcDbEntity
  8
0
  6
Continuous
 62
     7
370
    25
100
AcDbLine
 10
-422.7503720426
 20
108.5958316346
 30
0.0
 11
-422.7503720426
 21
141.2458316346
 31
0.0
  0
LINE
  5
B5
330
1F
100
AcDbEntity
  8
0
  6
Continuous
 62
     7
370
    25
100
AcDbLine
 10
-422.7503720426
 20
75.9458316346
 30
0.0
 11
-422.7503720426
 21
108.5958316346
 31
0.0
  0
LINE
  5
B6
330
1F
100
AcDbEntity
  8
0
  6
Continuous
 62
     7
370
    25
100
AcDbLine
 10
2.2496279574
 20
108.5958316346
 30
0.0
 11
2.2496279574
 21
140.0958316346
 31
0.0
  0
LINE
  5
B7
330
1F
100
AcDbEntity
  8
0
  6
Continuous
 62
     7
370
    25
100
AcDbLine
 10
2.2496279574
 20
77.0958316346
 30
0.0
 11
2.2496279574
 21
108.5958316346
 31
0.0
  0
LINE
  5
B8
330
1F
100
AcDbEntity
  8
0
  6
Continuous
 62
     7
370
    25
100
AcDbLine
 10
-472.7503720426
 20
108.5958316346
 30
0.0
 11
-472.7503720426
 21
138.7558316346
 31
0.0
  0
LINE
  5
B9
330
1F
100
AcDbEntity
  8
0
  6
Continuous
 62
     7
370
    25
100
AcDbLine
 10
-472.7503720426
 20
78.4358316346
 30
0.0
 11
-472.7503720426
 21
108.5958316346
 31
0.0
  0
LINE
  5
BA
330
1F
100
AcDbEntity
  8
0
  6
Continuous
 62
     7
370
    25
100
AcDbLine
 10
95.4424909615
 20
326.5018762074
 30
0.0
 11
106.4424909615
 21
313.5018762074
 31
0.0
  0
LINE
  5
BB
330
1F
100
AcDbEntity
  8
0
  6
Continuous
 62
     7
370
    25
100
AcDbLine
 10
169.4424909615
 20
313.5018762074
 30
0.0
 11
180.4424909615
 21
326.5018762074
 31
0.0
  0
LINE
  5
BC
330
1F
100
AcDbEntity
  8
0
  6
Continuous
 62
     7
370
    25
100
AcDbLine
 10
95.4424909615
 20
403.5018762074
 30
0.0
 11
95.4424909615
 21
326.5018762074
 31
0.0
  0
LINE
  5
BD
330
1F
100
AcDbEntity
  8
0
  6
Continuous
 62
     7
370
    25
100
AcDbLine
 10
180.4424909615
 20
326.5018762074
 30
0.0
 11
180.4424909615
 21
403.5018762074
 31
0.0
  0
LINE
  5
BE
330
1F
100
AcDbEntity
  8
0
  6
Continuous
 62
     7
370
    25
100
AcDbLine
 10
105.2924909615
 20
628.5018762074
 30
0.0
 11
105.2924909615
 21
403.5018762074
 31
0.0
  0
LINE
  5
BF
330
1F
100
AcDbEntity
  8
0
  6
Continuous
 62
     7
370
    25
100
AcDbLine
 10
170.5924909615
 20
403.5018762074
 30
0.0
 11
170.5924909615
 21
628.5018762074
 31
0.0
  0
LINE
  5
C0
330
1F
100
AcDbEntity
  8
0
  6
Continuous
 62
     7
370
    25
100
AcDbLine
 10
106.4424909615
 20
313.5018762074
 30
0.0
 11
106.4424909615
 21
203.5018762074
 31
0.0
  0
LINE
  5
C1
330
1F
100
AcDbEntity
  8
0
  6
Continuous
 62
     7
370
    25
100
AcDbLine
 10
169.4424909615
 20
203.5018762074
 30
0.0
 11
169.4424909615
 21
313.5018762074
 31
0.0
  0
LINE
  5
C2
330
1F
100
AcDbEntity
  8
0
  6
Continuous
 62
     7
370
    25
100
AcDbLine
 10
107.7824909615
 20
678.5018762074
 30
0.0
 11
107.7824909615
 21
628.5018762074
 31
0.0
  0
LINE
  5
C3
330
1F
100
AcDbEntity
  8
0
  6
Continuous
 62
     7
370
    25
100
AcDbLine
 10
168.1024909615
 20
628.5018762074
 30
0.0
 11
168.1024909615
 21
678.5018762074
 31
0.0
  0
LINE
  5
C4
330
1F
100
AcDbEntity
  8
0
  6
Continuous
 62
     7
370
    25
100
AcDbLine
 10
106.4424909615
 20
313.5018762074
 30
0.0
 11
169.4424909615
 21
313.5018762074
 31
0.0
  0
LINE
  5
C5
330
1F
100
AcDbEntity
  8
0
  6
Continuous
 62
     7
370
    25
100
AcDbLine
 10
95.4424909615
 20
326.5018762074
 30
0.0
 11
180.4424909615
 21
326.5018762074
 31
0.0
  0
LINE
  5
C6
330
1F
100
AcDbEntity
  8
0
  6
Continuous
 62
     7
370
    25
100
AcDbLine
 10
95.4424909615
 20
403.5018762074
 30
0.0
 11
180.4424909615
 21
403.5018762074
 31
0.0
  0
LINE
  5
C7
330
1F
100
AcDbEntity
  8
0
  6
Continuous
 62
     7
370
    25
100
AcDbLine
 10
105.2924909615
 20
628.5018762074
 30
0.0
 11
170.5924909615
 21
628.5018762074
 31
0.0
  0
LINE
  5
C8
330
1F
100
AcDbEntity
  8
0
  6
Continuous
 62
     7
370
    25
100
AcDbLine
 10
106.4424909615
 20
203.5018762074
 30
0.0
 11
169.4424909615
 21
203.5018762074
 31
0.0
  0
LINE
  5
C9
330
1F
100
AcDbEntity
  8
0
  6
Continuous
 62
     7
370
    25
100
AcDbLine
 10
107.7824909615
 20
678.5018762074
 30
0.0
 11
168.1024909615
 21
678.5018762074
 31
0.0
  0
LINE
  5
CA
330
1F
100
AcDbEntity
  8
0
  6
Continuous
 62
     7
370
    25
100
AcDbLine
 10
180.4424909615
 20
-124.0713392232
 30
0.0
 11
169.4424909615
 21
-111.0713392232
 31
0.0
  0
LINE
  5
CB
330
1F
100
AcDbEntity
  8
0
  6
Continuous
 62
     7
370
    25
100
AcDbLine
 10
106.4424909615
 20
-111.0713392232
 30
0.0
 11
95.4424909615
 21
-124.0713392232
 31
0.0
  0
LINE
  5
CC
330
1F
100
AcDbEntity
  8
0
  6
Continuous
 62
     7
370
    25
100
AcDbLine
 10
180.4424909615
 20
-201.0713392232
 30
0.0
 11
180.4424909615
 21
-124.0713392232
 31
0.0
  0
LINE
  5
CD
330
1F
100
AcDbEntity
  8
0
  6
Continuous
 62
     7
370
    25
100
AcDbLine
 10
95.4424909615
 20
-124.0713392232
 30
0.0
 11
95.4424909615
 21
-201.0713392232
 31
0.0
  0
LINE
  5
CE
330
1F
100
AcDbEntity
  8
0
  6
Continuous
 62
     7
370
    25
100
AcDbLine
 10
170.5924909615
 20
-426.0713392232
 30
0.0
 11
170.5924909615
 21
-201.0713392232
 31
0.0
  0
LINE
  5
CF
330
1F
100
AcDbEntity
  8
0
  6
Continuous
 62
     7
370
    25
100
AcDbLine
 10
105.2924909615
 20
-201.0713392232
 30
0.0
 11
105.2924909615
 21
-426.0713392232
 31
0.0
  0
LINE
  5
D0
330
1F
100
AcDbEntity
  8
0
  6
Continuous
 62
     7
370
    25
100
AcDbLine
 10
169.4424909615
 20
-111.0713392232
 30
0.0
 11
169.4424909615
 21
-1.0713392232
 31
0.0
  0
LINE
  5
D1
330
1F
100
AcDbEntity
  8
0
  6
Continuous
 62
     7
370
    25
100
AcDbLine
 10
106.4424909615
 20
-1.0713392232
 30
0.0
 11
106.4424909615
 21
-111.0713392232
 31
0.0
  0
LINE
  5
D2
330
1F
100
AcDbEntity
  8
0
  6
Continuous
 62
     7
370
    25
100
AcDbLine
 10
168.1024909615
 20
-476.0713392232
 30
0.0
 11
168.1024909615
 21
-426.0713392232
 31
0.0
  0
LINE
  5
D3
330
1F
100
AcDbEntity
  8
0
  6
Continuous
 62
     7
370
    25
100
AcDbLine
 10
107.7824909615
 20
-426.0713392232
 30
0.0
 11
107.7824909615
 21
-476.0713392232
 31
0.0
  0
LINE
  5
D4
330
1F
100
AcDbEntity
  8
0
  6
Continuous
 62
     7
370
    25
100
AcDbLine
 10
169.4424909615
 20
-111.0713392232
 30
0.0
 11
106.4424909615
 21
-111.0713392232
 31
0.0
  0
LINE
  5
D5
330
1F
100
AcDbEntity
  8
0
  6
Continuous
 62
     7
370
    25
100
AcDbLine
 10
180.4424909615
 20
-124.0713392232
 30
0.0
 11
95.4424909615
 21
-124.0713392232
 31
0.0
  0
LINE
  5
D6
330
1F
100
AcDbEntity
  8
0
  6
Continuous
 62
     7
370
    25
100
AcDbLine
 10
180.4424909615
 20
-201.0713392232
 30
0.0
 11
95.4424909615
 21
-201.0713392232
 31
0.0
  0
LINE
  5
D7
330
1F
100
AcDbEntity
  8
0
  6
Continuous
 62
     7
370
    25
100
AcDbLine
 10
170.5924909615
 20
-426.0713392232
 30
0.0
 11
105.2924909615
 21
-426.0713392232
 31
0.0
  0
LINE
  5
D8
330
1F
100
AcDbEntity
  8
0
  6
Continuous
 62
     7
370
    25
100
AcDbLine
 10
169.4424909615
 20
-1.0713392232
 30
0.0
 11
106.4424909615
 21
-1.0713392232
 31
0.0
  0
LINE
  5
D9
330
1F
100
AcDbEntity
  8
0
  6
Continuous
 62
     7
370
    25
100
AcDbLine
 10
168.1024909615
 20
-476.0713392232
 30
0.0
 11
107.7824909615
 21
-476.0713392232
 31
0.0
  0
LINE
  5
DA
330
1F
100
AcDbEntity
  8
0
  6
Continuous
 62
     7
370
    25
100
AcDbLine
 10
250.6487804585
 20
-27.5014591805
 30
0.0
 11
286.0041195178
 21
-47.9116619761
 31
0.0
  0
LINE
  5
DB
330
1F
100
AcDbEntity
  8
0
  6
Continuous
 62
     7
370
    25
100
AcDbLine
 10
316.1616684941
 20
4.3284054027
 30
0.0
 11
280.8063294348
 21
24.7386081983
 31
0.0
  0
LINE
  5
DC
330
1F
100
AcDbEntity
  8
0
  6
Continuous
 62
     7
370
    25
100
AcDbLine
 10
284.7592206957
 20
-50.0681236434
 30
0.0
 11
443.8582464627
 21
-141.9140362235
 31
0.0
  0
LINE
  5
DD
330
1F
100
AcDbEntity
  8
0
  6
Continuous
 62
     7
370
    25
100
AcDbLine
 10
476.5055930832
 20
-85.36104551
 30
0.0
 11
317.4065673163
 21
6.4848670701
 31
0.0
  0
LINE
  5
DE
330
1F
100
AcDbEntity
  8
0
  6
Continuous
 62
     7
370
    25
100
AcDbLine
 10
438.9336467044
 20
-150.4446175179
 30
0.0
 11
493.3808688558
 21
-181.8763298231
 31
0.0
  0
LINE
  5
DF
330
1F
100
AcDbEntity
  8
0
  6
Continuous
 62
     7
370
    25
100
AcDbLine
 10
535.8774149928
 20
-108.2621765207
 30
0.0
 11
481.4301928415
 21
-76.8304642155
 31
0.0
  0
LINE
  5
E0
330
1F
100
AcDbEntity
  8
0
  6
Continuous
 62
     7
370
    25
100
AcDbLine
 10
510.3209887072
 20
-181.9008387212
 30
0.0
 11
520.6284282835
 21
-177.6746104824
 31
0.0
  0
LINE
  5
E1
330
1F
100
AcDbEntity
  8
0
  6
Continuous
 62
     7
370
    25
100
AcDbLine
 10
545.8648104223
 20
-133.9591777606
 30
0.0
 11
544.3700757199
 21
-122.9196993347
 31
0.0
  0
LINE
  5
E2
330
1F
100
AcDbEntity
  8
0
  6
Continuous
 62
     7
370
    25
100
AcDbLine
 10
513.3054239034
 20
-180.6771687487
 30
0.0
 11
585.8545559712
 21
-222.558891214
 31
0.0
  0
LINE
  5
E3
330
1F
100
AcDbEntity
  8
0
  6
Continuous
 62
     7
370
    25
100
AcDbLine
 10
617.3519960493
 20
-167.997812884
 30
0.0
 11
544.8028639814
 21
-126.1160904187
 31
0.0
  0
LWPOLYLINE
  5
E4
330
1F
100
AcDbEntity
  8
0
  6
Continuous
 62
     7
370
    25
100
AcDbPolyline
 90
       60
 70
   128
 43
0.0
 10
287.0538954672
 20
10.9300088352
 10
286.9330774874
 20
13.4779380471
 10
286.5719924639
 20
15.8575047327
 10
285.9747316343
 20
18.0417474505
 10
285.1480622024
 20
20.0059178578
 10
284.1013506634
 20
21.7277611189
 10
282.846456677
 20
23.1877680619
 10
281.3975986937
 20
24.3693962245
 10
279.7711928533
 20
25.2592572876
 10
277.9856669838
 20
25.8472687697
 10
276.0612518069
 20
26.1267682658
 10
274.0197517154
 20
26.0945889349
 10
271.8842977212
 20
25.7510953817
 10
269.6790853712
 20
25.1001795254
 10
267.4291006025
 20
24.1492165028
 10
265.1598366416
 20
22.9089811049
 10
262.897005156
 20
21.3935256942
 10
260.6662449306
 20
19.6200209863
 10
258.49283137
 20
17.6085614979
 10
256.4013901184
 20
15.381937869
 10
254.4156180409
 20
12.965378635
 10
252.5580147285
 20
10.3862643774
 10
250.849627569
 20
7.6738174916
 10
249.3098132717
 20
4.8587710844
 10
247.9560185478
 20
1.9730207566
 10
246.8035824323
 20
-0.9507367875
 10
245.8655624872
 20
-3.8793742068
 10
245.152586853
 20
-6.779708869
 10
244.6727338287
 20
-9.6188788235
 10
244.4314403407
 20
-12.3647151402
 10
244.4314403407
 20
-14.9861063964
 10
244.6727338287
 20
-17.4533511819
 10
245.152586853
 20
-19.7384946273
 10
245.8655624872
 20
-21.8156451442
 10
246.8035824323
 20
-23.6612677874
 10
247.9560185478
 20
-25.2544509148
 10
249.3098132717
 20
-26.5771431249
 10
250.849627569
 20
-27.6143577866
 10
252.5580147285
 20
-28.3543428432
 10
254.4156180409
 20
-28.7887139684
 10
256.4013901184
 20
-28.9125495637
 10
258.49283137
 20
-28.7244465224
 10
260.6662449306
 20
-28.2265361271
 10
262.897005156
 20
-27.4244599016
 10
265.1598366416
 20
-26.3273056899
 10
267.4291006025
 20
-24.9475046877
 10
269.6790853712
 20
-23.3006905916
 10
271.8842977212
 20
-21.4055224635
 10
274.0197517154
 20
-19.2834733155
 10
276.0612518069
 20
-16.9585868123
 10
277.9856669838
 20
-14.457204847
 10
279.7711928533
 20
-11.8076690768
 10
281.3975986937
 20
-9.0399998007
 10
282.846456677
 20
-6.1855558174
 10
284.1013506634
 20
-3.2766791179
 10
285.1480622024
 20
-0.3463284375
 10
285.9747316343
 20
2.5722941797
 10
286.5719924639
 20
5.4461195732
 10
286.9330774874
 20
8.2425861529
 10
287.0538954672
 20
10.9300088352
  0
LWPOLYLINE
  5
E5
330
1F
100
AcDbEntity
  8
0
  6
Continuous
 62
     7
370
    25
100
AcDbPolyline
 90
       56
 70
   128
 43
0.0
 10
284.2891079528
 20
9.3339309766
 10
284.168118838
 20
11.7073997048
 10
283.8067287716
 20
13.9102355797
 10
283.2096490259
 20
15.9137212671
 10
282.3846634484
 20
17.6917382669
 10
281.3425269879
 20
19.2211074085
 10
280.0968254868
 20
20.4818910262
 10
278.6637985692
 20
21.4576528775
 10
277.0621279326
 20
22.1356724144
 10
275.3126938031
 20
22.5071106154
 10
273.43830273
 20
22.5671252153
 10
271.4633902675
 20
22.3149338323
 10
269.4137024198
 20
21.7538241665
 10
267.3159600025
 20
20.8911111407
 10
265.1975102962
 20
19.7380415384
 10
263.0859705325
 20
18.3096473853
 10
261.0088678614
 20
16.6245499836
 10
258.9932804927
 20
14.7047171551
 10
257.0654846904
 20
12.5751768565
 10
255.2506122207
 20
10.2636909025
 10
253.5723227219
 20
7.8003930474
 10
252.0524952642
 20
5.2173961459
 10
250.7109431227
 20
2.5483735127
 10
249.5651554813
 20
-0.1718800603
 10
248.6300694341
 20
-2.9079019078
 10
247.9178752579
 20
-5.6240238008
 10
247.4378574928
 20
-8.2848369366
 10
247.1962739044
 20
-10.8556535467
 10
247.1962739044
 20
-13.3029591052
 10
247.4378574928
 20
-15.5948492414
 10
247.9178752579
 20
-17.7014456624
 10
248.6300694341
 20
-19.5952856622
 10
249.5651554813
 20
-21.2516801402
 10
250.7109431227
 20
-22.6490354612
 10
252.0524952642
 20
-23.7691349616
 10
253.5723227219
 20
-24.5973764314
 10
255.2506122207
 20
-25.1229624766
 10
257.0654846904
 20
-25.3390412791
 10
258.9932804927
 20
-25.2427959214
 10
261.0088678614
 20
-24.8354811088
 10
263.0859705325
 20
-24.1224068129
 10
265.1975102962
 20
-23.1128690477
 10
267.3159600025
 20
-21.8200286817
 10
269.4137024198
 20
-20.2607398663
 10
271.4633902675
 20
-18.4553303159
 10
273.43830273
 20
-16.4273363049
 10
275.3126938031
 20
-14.2031958366
 10
277.0621279326
 20
-11.8119039836
 10
278.6637985692
 20
-9.284634892
 10
280.0968254868
 20
-6.6543353795
 10
281.3425269879
 20
-3.9552954228
 10
282.3846634484
 20
-1.2227011352
 10
283.2096490259
 20
1.5078239377
 10
283.8067287716
 20
4.2006832257
 10
284.168118838
 20
6.8207711898
 10
284.2891079528
 20
9.3339309766
  0
LWPOLYLINE
  5
E6
330
1F
100
AcDbEntity
  8
0
  6
Continuous
 62
     7
370
    25
100
AcDbPolyline
 90
        9
 70
   128
 43
0.0
 10
322.4092345266
 20
-9.4801939604
 10
322.2884165467
 20
-6.9322647484
 10
321.9273315232
 20
-4.5526980629
 10
321.3300706936
 20
-2.3684553451
 10
320.5034012618
 20
-0.4042849378
 10
319.4566897227
 20
1.3175583234
 10
318.2017957363
 20
2.7775652663
 10
316.752937753
 20
3.9591934289
 10
316.1616684941
 20
4.3284054027
  0
LWPOLYLINE
  5
E7
330
1F
100
AcDbEntity
  8
0
  6
Continuous
 62
     7
370
    25
100
AcDbPolyline
 90
       24
 70
   128
 43
0.0
 10
286.0041195178
 20
-47.9116619761
 10
286.2049666284
 20
-48.0245605821
 10
287.9133537878
 20
-48.7645456388
 10
289.7709571002
 20
-49.1989167639
 10
291.7567291777
 20
-49.3227523593
 10
293.8481704293
 20
-49.134649318
 10
296.0215839899
 20
-48.6367389227
 10
298.2523442154
 20
-47.8346626971
 10
300.515175701
 20
-46.7375084855
 10
302.7844396618
 20
-45.3577074832
 10
305.0344244305
 20
-43.7108933872
 10
307.2396367805
 20
-41.8157252591
 10
309.3750907748
 20
-39.693676111
 10
311.4165908662
 20
-37.3687896078
 10
313.3410060432
 20
-34.8674076426
 10
315.1265319126
 20
-32.2178718724
 10
316.752937753
 20
-29.4502025962
 10
318.2017957363
 20
-26.595758613
 10
319.4566897227
 20
-23.6868819135
 10
320.5034012618
 20
-20.7565312331
 10
321.3300706936
 20
-17.8379086159
 10
321.9273315232
 20
-14.9640832224
 10
322.2884165467
 20
-12.1676166427
 10
322.4092345266
 20
-9.4801939604
  0
LWPOLYLINE
  5
E8
330
1F
100
AcDbEntity
  8
0
  6
Continuous
 62
     7
370
    25
100
AcDbPolyline
 90
        9
 70
   128
 43
0.0
 10
483.2689561787
 20
-100.3096784412
 10
483.1505040611
 20
-97.680906111
 10
482.7963631872
 20
-95.2158704462
 10
482.2101675216
 20
-92.9398660484
 10
481.3979322252
 20
-90.8762478026
 10
480.3679919311
 20
-89.0461912247
 10
479.1309152206
 20
-87.4684751715
 10
477.6993961747
 20
-86.1592891447
 10
476.5055930832
 20
-85.36104551
  0
LWPOLYLINE
  5
E9
330
1F
100
AcDbEntity
  8
0
  6
Continuous
 62
     7
370
    25
100
AcDbPolyline
 90
       25
 70
   128
 43
0.0
 10
443.8582464627
 20
-141.9140362235
 10
444.2757154299
 20
-142.1430145689
 10
446.0502066697
 20
-142.8777318147
 10
447.9697084092
 20
-143.3124051331
 10
450.0145239631
 20
-143.4425741876
 10
452.1636707566
 20
-143.2669032677
 10
454.3950956355
 20
-142.7871949945
 10
456.6859011609
 20
-142.0083718242
 10
459.0125805681
 20
-140.9384255364
 10
461.3512589779
 20
-139.5883352279
 10
463.677938385
 20
-137.9719546522
 10
465.9687439104
 20
-136.1058700614
 10
468.2001687893
 20
-134.0092300085
 10
470.3493155828
 20
-131.7035488577
 10
472.3941311367
 20
-129.2124860177
 10
474.3136328762
 20
-126.5616031642
 10
476.088124116
 20
-123.7781019425
 10
477.6993961747
 20
-120.8905448418
 10
479.1309152206
 20
-117.9285621054
 10
480.3679919311
 20
-114.9225476844
 10
481.3979322252
 20
-111.9033473546
 10
482.2101675216
 20
-108.9019421969
 10
482.7963631872
 20
-105.9491306899
 10
483.1505040611
 20
-103.0752126754
 10
483.2689561787
 20
-100.3096784412
  0
LWPOLYLINE
  5
EA
330
1F
100
AcDbEntity
  8
0
  6
Continuous
 62
     7
370
    25
100
AcDbPolyline
 90
       13
 70
   128
 43
0.0
 10
324.1699304117
 20
-8.4637658612
 10
324.0514782941
 20
-5.834993531
 10
323.6973374202
 20
-3.3699578661
 10
323.1111417546
 20
-1.0939534683
 10
322.2989064582
 20
0.9696647774
 10
321.2689661641
 20
2.7997213554
 10
320.0318894536
 20
4.3774374086
 10
318.6003704077
 20
5.6866234354
 10
316.989098349
 20
6.7138454155
 10
315.2146071092
 20
7.4485626613
 10
313.2951053697
 20
7.8832359797
 10
311.2502898159
 20
8.0134050342
 10
309.9082230659
 20
7.9384426066
  0
LWPOLYLINE
  5
EB
330
1F
100
AcDbEntity
  8
0
  6
Continuous
 62
     7
370
    25
100
AcDbPolyline
 90
       29
 70
   128
 43
0.0
 10
279.7506740896
 20
-44.3016247722
 10
279.8668815538
 20
-44.5529213508
 10
280.8968218478
 20
-46.3829779287
 10
282.1338985583
 20
-47.9606939819
 10
283.5654176042
 20
-49.2698800087
 10
285.1766896629
 20
-50.2971019888
 10
286.9511809027
 20
-51.0318192346
 10
288.8706826422
 20
-51.4664925531
 10
290.9154981961
 20
-51.5966616076
 10
293.0646449896
 20
-51.4209906876
 10
295.2960698685
 20
-50.9412824144
 10
297.5868753939
 20
-50.1624592441
 10
299.9135548011
 20
-49.0925129564
 10
302.2522332109
 20
-47.7424226479
 10
304.5789126181
 20
-46.1260420722
 10
306.8697181434
 20
-44.2599574813
 10
309.1011430223
 20
-42.1633174285
 10
311.2502898159
 20
-39.8576362777
 10
313.2951053697
 20
-37.3665734377
 10
315.2146071092
 20
-34.7156905842
 10
316.989098349
 20
-31.9321893625
 10
318.6003704077
 20
-29.0446322617
 10
320.0318894536
 20
-26.0826495253
 10
321.2689661641
 20
-23.0766351043
 10
322.2989064582
 20
-20.0574347745
 10
323.1111417546
 20
-17.0560296169
 10
323.6973374202
 20
-14.1032181098
 10
324.0514782941
 20
-11.2293000953
 10
324.1699304117
 20
-8.4637658612
  0
LWPOLYLINE
  5
EC
330
1F
100
AcDbEntity
  8
0
  6
Continuous
 62
     7
370
    25
100
AcDbPolyline
 90
       10
 70
   128
 43
0.0
 10
544.6811801247
 20
-127.7205807957
 10
544.5601994541
 20
-124.6796699023
 10
544.1982315074
 20
-121.8029239445
 10
543.5981906377
 20
-119.1135047893
 10
542.7649080214
 20
-116.6330660584
 10
541.7050927599
 20
-114.3815787858
 10
540.4272778628
 20
-112.3771706234
 10
538.9417515441
 20
-110.635979887
 10
537.2604743883
 20
-109.1720256207
 10
535.8774149928
 20
-108.2621765207
  0
LWPOLYLINE
  5
ED
330
1F
100
AcDbEntity
  8
0
  6
Continuous
 62
     7
370
    25
100
AcDbPolyline
 90
       28
 70
   128
 43
0.0
 10
493.3808688558
 20
-181.8763298231
 10
493.8613007981
 20
-182.1414116204
 10
495.8920025813
 20
-183.017859296
 10
498.0735647932
 20
-183.5887671085
 10
500.3884227777
 20
-183.8495384438
 10
502.8179386593
 20
-183.7980737246
 10
505.3425514048
 20
-183.4347873145
 10
507.9419343167
 20
-182.762604182
 10
510.5951586922
 20
-181.7869363506
 10
513.2808623288
 20
-180.5156393238
 10
515.9774215199
 20
-178.9589488379
 10
518.6631251564
 20
-177.1293984492
 10
521.316349532
 20
-175.0417186219
 10
523.9157324439
 20
-172.7127181263
 10
526.4403451893
 20
-170.161148705
 10
528.8698610709
 20
-167.4075540946
 10
531.1847190554
 20
-164.4741046199
 10
533.3662812674
 20
-161.3844186913
 10
535.3969830506
 20
-158.163372643
 10
537.2604743883
 20
-154.8369004439
 10
538.9417515441
 20
-151.4317848923
 10
540.4272778628
 20
-147.9754419764
 10
541.7050927599
 20
-144.4957001371
 10
542.7649080214
 20
-141.0205762096
 10
543.5981906377
 20
-137.5780498483
 10
544.1982315074
 20
-134.1958382515
 10
544.5601994541
 20
-130.9011729982
 10
544.6811801247
 20
-127.7205807957
  0
LWPOLYLINE
  5
EE
330
1F
100
AcDbEntity
  8
0
  6
Continuous
 62
     7
370
    25
100
AcDbPolyline
 90
       18
 70
   128
 43
0.0
 10
490.2339579734
 20
-96.2888684905
 10
490.1129773027
 20
-93.2479575971
 10
489.7510093561
 20
-90.3712116394
 10
489.1509684864
 20
-87.6817924842
 10
488.31768587
 20
-85.2013537532
 10
487.2578706086
 20
-82.9498664807
 10
485.9800557114
 20
-80.9454583182
 10
484.4945293927
 20
-79.2042675819
 10
482.8132522369
 20
-77.7403133155
 10
480.9497608992
 20
-76.5653824182
 10
478.919059116
 20
-75.6889347426
 10
476.7374969041
 20
-75.1180269302
 10
474.4226389196
 20
-74.8572555948
 10
471.9931230379
 20
-74.908720314
 10
469.4685102925
 20
-75.2720067241
 10
466.8691273806
 20
-75.9441898566
 10
464.2159030051
 20
-76.9198576881
 10
462.9009265329
 20
-77.5072386834
  0
LWPOLYLINE
  5
EF
330
1F
100
AcDbEntity
  8
0
  6
Continuous
 62
     7
370
    25
100
AcDbPolyline
 90
       35
 70
   128
 43
0.0
 10
430.2535799123
 20
-134.0602293969
 10
430.6128301899
 20
-136.9038700941
 10
431.2128710595
 20
-139.5932892493
 10
432.0461536759
 20
-142.0737279803
 10
433.1059689374
 20
-144.3252152528
 10
434.3837838345
 20
-146.3296234152
 10
435.8693101532
 20
-148.0708141516
 10
437.550587309
 20
-149.5347684179
 10
439.4140786467
 20
-150.7096993152
 10
441.4447804299
 20
-151.5861469908
 10
443.6263426419
 20
-152.1570548033
 10
445.9412006263
 20
-152.4178261387
 10
448.370716508
 20
-152.3663614194
 10
450.8953292534
 20
-152.0030750093
 10
453.4947121653
 20
-151.3308918769
 10
456.1479365408
 20
-150.3552240454
 10
458.8336401774
 20
-149.0839270186
 10
461.5301993685
 20
-147.5272365327
 10
464.2159030051
 20
-145.6976861441
 10
466.8691273806
 20
-143.6100063167
 10
469.4685102925
 20
-141.2810058211
 10
471.9931230379
 20
-138.7294363998
 10
474.4226389196
 20
-135.9758417894
 10
476.7374969041
 20
-133.0423923148
 10
478.919059116
 20
-129.9527063861
 10
480.9497608992
 20
-126.7316603378
 10
482.8132522369
 20
-123.4051881388
 10
484.4945293927
 20
-120.0000725872
 10
485.9800557114
 20
-116.5437296713
 10
487.2578706086
 20
-113.0639878319
 10
488.31768587
 20
-109.5888639044
 10
489.1509684864
 20
-106.1463375432
 10
489.7510093561
 20
-102.7641259463
 10
490.1129773027
 20
-99.469460693
 10
490.2339579734
 20
-96.2888684905
  0
LWPOLYLINE
  5
F0
330
1F
100
AcDbEntity
  8
0
  6
Continuous
 62
     7
370
    25
100
AcDbPolyline
 90
        3
 70
   128
 43
0.0
 10
546.0953936871
 20
-137.5174781375
 10
545.9733751317
 20
-134.899337628
 10
545.8648104223
 20
-133.9591777606
  0
LWPOLYLINE
  5
F1
330
1F
100
AcDbEntity
  8
0
  6
Continuous
 62
     7
370
    25
100
AcDbPolyline
 90
       18
 70
   128
 43
0.0
 10
520.6284282835
 20
-177.6746104824
 10
521.4932773458
 20
-177.300110643
 10
523.8215300797
 20
-176.0969414731
 10
526.1497828137
 20
-174.6119672551
 10
528.4525267234
 20
-172.8614576771
 10
530.7045324648
 20
-170.8645916885
 10
532.8811265917
 20
-168.6432473708
 10
534.9584618834
 20
-166.2217622372
 10
536.9137786197
 20
-163.6266665857
 10
538.7256539413
 20
-160.8863928271
 10
540.374236563
 20
-158.0309639743
 10
541.8414642685
 20
-155.0916647033
 10
543.1112618042
 20
-152.100698592
 10
544.1697170024
 20
-149.090835291
 10
545.0052332066
 20
-146.0950514926
 10
545.6086563264
 20
-143.1461696308
 10
545.9733751317
 20
-140.2764982725
 10
546.0953936871
 20
-137.5174781375
  0
LWPOLYLINE
  5
F2
330
1F
100
AcDbEntity
  8
0
  6
Continuous
 62
     7
370
    25
100
AcDbPolyline
 90
        9
 70
   128
 43
0.0
 10
623.8771396176
 20
-182.4199242878
 10
623.7551210622
 20
-179.8017837782
 10
623.3904022569
 20
-177.3532077893
 10
622.7869791371
 20
-175.101023432
 10
621.9514629329
 20
-173.0699061094
 10
620.8930077347
 20
-171.2821091679
 10
619.623210199
 20
-169.7572200849
 10
618.1559824935
 20
-168.5119458644
 10
617.3519960493
 20
-167.997812884
  0
LWPOLYLINE
  5
F3
330
1F
100
AcDbEntity
  8
0
  6
Continuous
 62
     7
370
    25
100
AcDbPolyline
 90
       24
 70
   128
 43
0.0
 10
585.8545559712
 20
-222.558891214
 10
586.6991521487
 20
-222.9967741067
 10
588.5110274703
 20
-223.6451011473
 10
590.4663442066
 20
-223.9826361487
 10
592.5436794983
 20
-224.0056810067
 10
594.7202736252
 20
-223.713983237
 10
596.9722793666
 20
-223.1107387416
 10
599.2750232764
 20
-222.2025567932
 10
601.6032760103
 20
-220.9993876234
 10
603.9315287442
 20
-219.5144134054
 10
606.2342726539
 20
-217.7639038274
 10
608.4862783953
 20
-215.7670378387
 10
610.6628725223
 20
-213.545693521
 10
612.740207814
 20
-211.1242083875
 10
614.6955245503
 20
-208.5291127359
 10
616.5073998718
 20
-205.7888389774
 10
618.1559824935
 20
-202.9334101246
 10
619.623210199
 20
-199.9941108536
 10
620.8930077347
 20
-197.0031447423
 10
621.9514629329
 20
-193.9932814413
 10
622.7869791371
 20
-190.9974976428
 10
623.3904022569
 20
-188.048615781
 10
623.7551210622
 20
-185.1789444227
 10
623.8771396176
 20
-182.4199242878
  0
ENDSEC
  0
SECTION
  2
OBJECTS
  0
DICTIONARY
  5
C
330
0
100
AcDbDictionary
281
     1
  3
ACAD_GROUP
350
D
  3
ACAD_LAYOUT
350
1A
  3
ACAD_MLINESTYLE
350
17
  3
ACAD_PLOTSETTINGS
350
19
  3
ACAD_PLOTSTYLENAME
350
E
  3
ACAD_SCALELIST
350
47
  3
DWGPROPS
350
F4
  0
DICTIONARY
  5
D
102
{ACAD_REACTORS
330
C
102
}
330
C
100
AcDbDictionary
281
     1
  0
DICTIONARY
  5
1A
102
{ACAD_REACTORS
330
C
102
}
330
C
100
AcDbDictionary
281
     1
  3
Layout1
350
1E
  3
Layout2
350
26
  3
Model
350
22
  0
DICTIONARY
  5
17
102
{ACAD_REACTORS
330
C
102
}
330
C
100
AcDbDictionary
281
     1
  3
Standard
350
18
  0
DICTIONARY
  5
19
102
{ACAD_REACTORS
330
C
102
}
330
C
100
AcDbDictionary
281
     1
  0
ACDBDICTIONARYWDFLT
  5
E
102
{ACAD_REACTORS
330
C
102
}
330
C
100
AcDbDictionary
281
     1
  3
Normal
350
F
100
AcDbDictionaryWithDefault
340
F
  0
DICTIONARY
  5
47
102
{ACAD_REACTORS
330
C
102
}
330
C
100
AcDbDictionary
281
     1
  3
A0
350
48
  3
A1
350
49
  3
A2
350
4A
  3
A3
350
4B
  3
A4
350
4C
  3
A5
350
4D
  3
A6
350
4E
  3
A7
350
4F
  3
A8
350
50
  3
A9
350
51
  3
B0
350
52
  3
B1
350
53
  3
B2
350
54
  3
B3
350
55
  3
B4
350
56
  3
B5
350
57
  3
B6
350
58
  3
B7
350
59
  3
B8
350
5A
  3
B9
350
5B
  3
C0
350
5C
  3
C1
350
5D
  3
C2
350
5E
  3
C3
350
5F
  3
C4
350
60
  3
C5
350
61
  3
C6
350
62
  3
C7
350
63
  3
C8
350
64
  3
C9
350
65
  3
D0
350
66
  3
D1
350
67
  3
D2
350
68
  0
XRECORD
  5
F4
102
{ACAD_REACTORS
330
C
102
}
330
C
100
AcDbXrecord
280
     1
  1
DWGPROPS COOKIE
  2

  3

  4

  6

  7

  8
b.kav
  9

300
=
301
=
302
=
303
=
304
=
305
=
306
=
307
=
308
=
309
=
 40
0.0
 41
2459935.584645011
 42
2459935.584645197
  1

 90
        0
  0
LAYOUT
  5
1E
102
{ACAD_REACTORS
330
1A
102
}
330
1A
100
AcDbPlotSettings
  1

  2
none_device
  4

  6

 40
0.0
 41
0.0
 42
0.0
 43
0.0
 44
0.0
 45
0.0
 46
0.0
 47
0.0
 48
0.0
 49
0.0
140
0.0
141
0.0
142
1.0
143
1.0
 70
   688
 72
     1
 73
     0
 74
     5
  7

 75
    16
147
1.0
148
0.0
149
0.0
100
AcDbLayout
  1
Layout1
 70
     1
 71
     1
 10
0.0
 20
0.0
 11
420.0
 21
297.0
 12
0.0
 22
0.0
 32
0.0
 14
1.0000000000E+20
 24
1.0000000000E+20
 34
1.0000000000E+20
 15
-1.0000000000E+20
 25
-1.0000000000E+20
 35
-1.0000000000E+20
146
0.0
 13
0.0
 23
0.0
 33
0.0
 16
1.0
 26
0.0
 36
0.0
 17
0.0
 27
1.0
 37
0.0
 76
     0
330
1B
  0
LAYOUT
  5
26
102
{ACAD_REACTORS
330
1A
102
}
330
1A
100
AcDbPlotSettings
  1

  2
none_device
  4

  6

 40
0.0
 41
0.0
 42
0.0
 43
0.0
 44
0.0
 45
0.0
 46
0.0
 47
0.0
 48
0.0
 49
0.0
140
0.0
141
0.0
142
1.0
143
1.0
 70
   688
 72
     1
 73
     0
 74
     5
  7

 75
    16
147
1.0
148
0.0
149
0.0
100
AcDbLayout
  1
Layout2
 70
     1
 71
     2
 10
0.0
 20
0.0
 11
0.0
 21
0.0
 12
0.0
 22
0.0
 32
0.0
 14
0.0
 24
0.0
 34
0.0
 15
0.0
 25
0.0
 35
0.0
146
0.0
 13
0.0
 23
0.0
 33
0.0
 16
1.0
 26
0.0
 36
0.0
 17
0.0
 27
1.0
 37
0.0
 76
     0
330
23
  0
LAYOUT
  5
22
102
{ACAD_REACTORS
330
1A
102
}
330
1A
100
AcDbPlotSettings
  1

  2
none_device
  4
Letter_(8.50_x_11.00_Inches)
  6

 40
6.35
 41
6.35
 42
6.35000508
 43
6.35000508
 44
215.9
 45
279.4
 46
0.0
 47
0.0
 48
0.0
 49
0.0
140
0.0
141
0.0
142
1.0
143
1.0
 70
  1712
 72
     1
 73
     0
 74
     0
  7

 75
     0
147
1.0
148
0.0
149
0.0
100
AcDbLayout
  1
Model
 70
     1
 71
     0
 10
0.0
 20
0.0
 11
279.4
 21
215.9
 12
0.0
 22
0.0
 32
0.0
 14
0.0
 24
0.0
 34
0.0
 15
279.4
 25
215.9
 35
0.0
146
0.0
 13
0.0
 23
0.0
 33
0.0
 16
1.0
 26
0.0
 36
0.0
 17
0.0
 27
1.0
 37
0.0
 76
     0
330
1F
331
29
  0
MLINESTYLE
  5
18
102
{ACAD_REACTORS
330
17
102
}
330
17
100
AcDbMlineStyle
  2
Standard
 70
     0
  3

 62
   256
 51
90.0
 52
90.0
 71
     2
 49
0.5
 62
   256
  6
BYLAYER
 49
-0.5
 62
   256
  6
BYLAYER
  0
ACDBPLACEHOLDER
  5
F
102
{ACAD_REACTORS
330
E
102
}
330
E
  0
SCALE
  5
48
102
{ACAD_REACTORS
330
47
102
}
330
47
100
AcDbScale
 70
     0
300
1:1
140
1.0
141
1.0
290
     1
  0
SCALE
  5
49
102
{ACAD_REACTORS
330
47
102
}
330
47
100
AcDbScale
 70
     0
300
1:2
140
1.0
141
2.0
290
     0
  0
SCALE
  5
4A
102
{ACAD_REACTORS
330
47
102
}
330
47
100
AcDbScale
 70
     0
300
1:4
140
1.0
141
4.0
290
     0
  0
SCALE
  5
4B
102
{ACAD_REACTORS
330
47
102
}
330
47
100
AcDbScale
 70
     0
300
1:5
140
1.0
141
5.0
290
     0
  0
SCALE
  5
4C
102
{ACAD_REACTORS
330
47
102
}
330
47
100
AcDbScale
 70
     0
300
1:8
140
1.0
141
8.0
290
     0
  0
SCALE
  5
4D
102
{ACAD_REACTORS
330
47
102
}
330
47
100
AcDbScale
 70
     0
300
1:10
140
1.0
141
10.0
290
     0
  0
SCALE
  5
4E
102
{ACAD_REACTORS
330
47
102
}
330
47
100
AcDbScale
 70
     0
300
1:16
140
1.0
141
16.0
290
     0
  0
SCALE
  5
4F
102
{ACAD_REACTORS
330
47
102
}
330
47
100
AcDbScale
 70
     0
300
1:20
140
1.0
141
20.0
290
     0
  0
SCALE
  5
50
102
{ACAD_REACTORS
330
47
102
}
330
47
100
AcDbScale
 70
     0
300
1:30
140
1.0
141
30.0
290
     0
  0
SCALE
  5
51
102
{ACAD_REACTORS
330
47
102
}
330
47
100
AcDbScale
 70
     0
300
1:40
140
1.0
141
40.0
290
     0
  0
SCALE
  5
52
102
{ACAD_REACTORS
330
47
102
}
330
47
100
AcDbScale
 70
     0
300
1:50
140
1.0
141
50.0
290
     0
  0
SCALE
  5
53
102
{ACAD_REACTORS
330
47
102
}
330
47
100
AcDbScale
 70
     0
300
1:100
140
1.0
141
100.0
290
     0
  0
SCALE
  5
54
102
{ACAD_REACTORS
330
47
102
}
330
47
100
AcDbScale
 70
     0
300
2:1
140
2.0
141
1.0
290
     0
  0
SCALE
  5
55
102
{ACAD_REACTORS
330
47
102
}
330
47
100
AcDbScale
 70
     0
300
4:1
140
4.0
141
1.0
290
     0
  0
SCALE
  5
56
102
{ACAD_REACTORS
330
47
102
}
330
47
100
AcDbScale
 70
     0
300
8:1
140
8.0
141
1.0
290
     0
  0
SCALE
  5
57
102
{ACAD_REACTORS
330
47
102
}
330
47
100
AcDbScale
 70
     0
300
10:1
140
10.0
141
1.0
290
     0
  0
SCALE
  5
58
102
{ACAD_REACTORS
330
47
102
}
330
47
100
AcDbScale
 70
     0
300
100:1
140
100.0
141
1.0
290
     0
  0
SCALE
  5
59
102
{ACAD_REACTORS
330
47
102
}
330
47
100
AcDbScale
 70
     0
300
1/128" = 1'-0"
140
0.0078125
141
12.0
290
     0
  0
SCALE
  5
5A
102
{ACAD_REACTORS
330
47
102
}
330
47
100
AcDbScale
 70
     0
300
1/64" = 1'-0"
140
0.015625
141
12.0
290
     0
  0
SCALE
  5
5B
102
{ACAD_REACTORS
330
47
102
}
330
47
100
AcDbScale
 70
     0
300
1/32" = 1'-0"
140
0.03125
141
12.0
290
     0
  0
SCALE
  5
5C
102
{ACAD_REACTORS
330
47
102
}
330
47
100
AcDbScale
 70
     0
300
1/16" = 1'-0"
140
0.0625
141
12.0
290
     0
  0
SCALE
  5
5D
102
{ACAD_REACTORS
330
47
102
}
330
47
100
AcDbScale
 70
     0
300
3/32" = 1'-0"
140
0.09375
141
12.0
290
     0
  0
SCALE
  5
5E
102
{ACAD_REACTORS
330
47
102
}
330
47
100
AcDbScale
 70
     0
300
1/8" = 1'-0"
140
0.125
141
12.0
290
     0
  0
SCALE
  5
5F
102
{ACAD_REACTORS
330
47
102
}
330
47
100
AcDbScale
 70
     0
300
3/16" = 1'-0"
140
0.1875
141
12.0
290
     0
  0
SCALE
  5
60
102
{ACAD_REACTORS
330
47
102
}
330
47
100
AcDbScale
 70
     0
300
1/4" = 1'-0"
140
0.25
141
12.0
290
     0
  0
SCALE
  5
61
102
{ACAD_REACTORS
330
47
102
}
330
47
100
AcDbScale
 70
     0
300
3/8" = 1'-0"
140
0.375
141
12.0
290
     0
  0
SCALE
  5
62
102
{ACAD_REACTORS
330
47
102
}
330
47
100
AcDbScale
 70
     0
300
1/2" = 1'-0"
140
0.5
141
12.0
290
     0
  0
SCALE
  5
63
102
{ACAD_REACTORS
330
47
102
}
330
47
100
AcDbScale
 70
     0
300
3/4" = 1'-0"
140
0.75
141
12.0
290
     0
  0
SCALE
  5
64
102
{ACAD_REACTORS
330
47
102
}
330
47
100
AcDbScale
 70
     0
300
1" = 1'-0"
140
1.0
141
12.0
290
     0
  0
SCALE
  5
65
102
{ACAD_REACTORS
330
47
102
}
330
47
100
AcDbScale
 70
     0
300
1-1/2" = 1'-0"
140
1.5
141
12.0
290
     0
  0
SCALE
  5
66
102
{ACAD_REACTORS
330
47
102
}
330
47
100
AcDbScale
 70
     0
300
3" = 1'-0"
140
3.0
141
12.0
290
     0
  0
SCALE
  5
67
102
{ACAD_REACTORS
330
47
102
}
330
47
100
AcDbScale
 70
     0
300
6" = 1'-0"
140
6.0
141
12.0
290
     0
  0
SCALE
  5
68
102
{ACAD_REACTORS
330
47
102
}
330
47
100
AcDbScale
 70
     0
300
1'-0" = 1'-0"
140
12.0
141
12.0
290
     0
  0
ENDSEC
  0
EOF
